Águas purificadoras

Исполнитель: Diante do Trono (Portuguese)
Пользователь: erlon.mendes42
Длительность: 130 секунд
Начальная пауза: 12 секунд
Названия аккордов: Не установлено
Матерная:
Комментарии к подбору: Нет

URL

Последний раз редактировал:
erlon.mendes42,
14 марта 2017 г., 23:03

Текст

Tom: D 
Solo Intro: D  Em/D 


                   D 
E|-----------0------2-----2------------------|
B|------3------------------------------------|
G|-----------------------------2-------------|
D|------0-----------0------------------------|
A|-------------------------------------------|
E|-------------------------------------------|


                   Em/D 
E|----------2---3---------------------3------|
B|------5-----------5----5---------------5---|
G|------------------------------4------------|
D|------0-----------0------------------------|
A|-------------------------------------------| (2x)
E|-------------------------------------------|  


 D                 Em/D 
Existe um rio, Senhor
 D                        Em/D 
Que flui do teu grande amor
 G                    D/F# 
Águas que correm do trono
 G                     A 4    A    G/A 
Águas que curam, que limpam

 D                 Em/D 
Por onde o rio passar
 Bm7              Asus    A 
Tudo vai transformar
     G               D/F# 
Pois leva a vida do próprio Deus
       G     Em7  A 4    A     G/B     A/C# 
 E este rio está neste lugar

 D                   G/D    D      D/F# 
Quero beber do teu rio, Senhor
  G          D/F#         Em7       A 
Sacia minha sede, lava o meu interior
   Bm7                  G      A 
Eu quero fluir em tuas águas
   Bm7     F#m7       G 
Eu quero beber da tua fonte
               A 4     A 
Fonte de águas vivas

Intro: G/A  D 

Refrão: G  Em  A 

        G/A     A   D  ( Em/D  D  Em/D )
Tu és a fonte, Senhor

 D 
Existe um rio...
 G/D             D   G/D 
Tu es o rio Senhor
                 Bm   A 
Tu es a fonte Senhor
                G   A 
Tu es o rio Senhor
                  D  D4  D 
Tu es a fonte Senhor...

Комментарии