Never Too Late

Исполнитель: Three Days Grace (English)
Пользователь: Андрей Куров
Длительность: 130 секунд
Начальная пауза: 12 секунд
Названия аккордов: Не установлено
Матерная:
Комментарии к подбору: Нет

URL

Загружено:
14 ноября 2017 г., 17:24

Текст

Вступление/куплет/конец акустика (x3)                 (x1)
E|--------------------------------|-------------------|
B|--------------------------------|-------------------|
G|--------------------------------|-------------------|
D|-------10-----------10--8--7--0-|-------10-----10---|
A|----8------8-----0--------------|----7------7--10---|
D|-8------------0-----------------|-7------------10---|

Припев: (x1)
E|-----------------------------------------|
B|-----------------------------------------|
G|-----------------------------------------|
D|-0----8----7----10----0----8----7----10--|
A|-0----8----7----10----0----8----7----10--|
D|-0----8----7----10----0----8----7----10--|

E|-----------------------------------------|
B|-----------------------------------------|
G|-----------------------------------------|
D|-0----8----7----10----88---0----7----10--|
A|-0----8----7----10----88---0----7----10--|
D|-0----8----7----10----88---0----7----10--|

Вступление/куплет/конец акустика (x3)                 (x1)
E|--------------------------------|-------------------|
B|--------------------------------|-------------------|
G|--------------------------------|-------------------|
D|-------10-----------10--8--7--0-|-------10-----10---|
A|----8------8-----0--------------|----7------7--10---|
D|-8------------0-----------------|-7------------10---|

Припев: (x1)
E|-----------------------------------------|
B|-----------------------------------------|
G|-----------------------------------------|
D|-0----8----7----10----0----8----7----10--|
A|-0----8----7----10----0----8----7----10--|
D|-0----8----7----10----0----8----7----10--|

E|-----------------------------------------|
B|-----------------------------------------|
G|-----------------------------------------|
D|-0----8----7----10----88---0----7----10--|
A|-0----8----7----10----88---0----7----10--|
D|-0----8----7----10----88---0----7----10--|

Бридж: (x3)                                          (x1)
E|---------------------------------------------|-----------|
B|--------------- -----------------------------|-----------|
G|---------------------------------------------|-----------|
D|-8-8-8-8--8-8-8-8--8-8--3-3-3--10-10-10-10---|-8--7--10--|
A|-8-8-8-8--8-8-8-8--8-8--3-3-3--10-10-10-10---|-8--7--10--|
D|-8-8-8-8--8-8-8-8--8-8--3-3-3--10-10-10-10---|-8--7--10--|

E|------------------|
B|------------------|
G|------------------|    (x3)
D|-------10-----12--|
A|----8-------------|
D|-8---------0------|

Припев: (x1)
E|-----------------------------------------|
B|-----------------------------------------|
G|-----------------------------------------|
D|-0----8----7----10----0----8----7----10--|
A|-0----8----7----10----0----8----7----10--|
D|-0----8----7----10----0----8----7----10--|
(x6)

E|--------------------|-----------|
B|--------------------|-----------|
G|--------------------|-----------|
D|-0----8----7----10--|-88---0----|
A|-0----8----7----10--|-88---0----|
D|-0----8----7----10--|-88---0----|

Вступление/куплет/конец акустика (x3)                 (x1)
E|--------------------------------|-------------------|
B|--------------------------------|-------------------|
G|--------------------------------|-------------------|
D|-------10-----------10--8--7--0-|-------10-----10---|
A|----8------8-----0--------------|----7------7--10---|
D|-8------------0-----------------|-7------------10---|

Комментарии