Juste pour voir le monde

Исполнитель: La Chicane (French)
Пользователь: Andre Lachance
Длительность: 200 секунд
Начальная пауза: 12 секунд
Названия аккордов: Не установлено
Матерная:
Комментарии к подбору: Нет

URL

Последний раз редактировал:
Andre Lachance,
31 декабря 2018 г., 19:39

Текст

CAPO II

[Intro]
   C
e|-----3------------3----------3-------------3----------0------------0---|
B|-------1---1---1----1------0---1---1---1-----1----------1---1--1-------|
G|---0-----0-------0----0----------0-------0-----0----0-----0------0-----|
D|-------------------------0------------------------2--------------------|
A|-3---------------------------------------------------------------------|
E|-----------------------------------------------------------------------|
 
           Dm7         G
e|-------------1--------------0------------------|
B|---1---1-------1---1------0---0---0------------|
G|-----------2-----2------0-------0--------------|
D|-3---2---0-------------------------------------|
A|---------------------2-------------------------|
E|-----------------------------------------------|
 
 
 [Verse 1]
       C
C'est plus l'temps de reculer,
          Dm7
J'trouve ca ben effrayant,
        C
J'suis deux semaines à l'affiche,
        Dm7           G
J'en demandais pas autant,
 
 [Verse 2]
       C
C'est sur, j'suis ben content,
      Dm7
Mais d'un autre coté,
      C
ca m'pogne toujours en dedans,
      Dm7             G               C
Moi j'peux pas m'empecher, d'chanter
 
 [Chorus]

                            F   G
On aurait certainement pas dû, aller,
 C                             F          G
  Chanter din bars, ou on est resté accroché,
 C                             F     G
  Crier ben fort pour pas s'décou,rager,
 C                                 Fm              G        C    F   G
  Sortir ben tard juste pour voir le monde, vibrer de,vant moé,
  C                                      F
(pour voir le monde) Juste pour voir le monde
 
 [Riff 2]
e|--10-8--7-5--------------|
B|--12-10-8-6--------------|
G|-------------------------|
D|-------------------------|
A|-------------------------|
E|-------------------------|
 
 
 [Verse 3]
  C
Avec cette musique douce,
     Dm7
Qui nous éleve l'ame,
 C
Nous restons sans rien dire,
 Dm7
Il nous suffit de vivre,
 
 [Verse 4]
 C
Et en écoutant bien,
 Dm7
Ce que j'essaie de dire,
 C
Il n'en reste pas moins,
 Dm7                         G      C
Que j'aime vraiment m'faire a,pplaudir,
 
 [Chorus]
                            F   G
On aurait certainement pas dû. aller.
 C                             F          G
  Chanter din bars, ou on est resté accroché
 C                             F     G
  Crier ben fort pour pas s'décou-rager
 C                                 Fm              G       C    F   G
  Sortir ben tard juste pour voir le monde vibrer de,vant moé,
  C                                      F
(pour voir le monde) Juste pour voir le monde

 [Riff 2]
e|--10-8--7-5--------------|
B|--12-10-8-6--------------|
G|-------------------------|
D|-------------------------|
A|-------------------------|
E|-------------------------|
 
 
 [Verse 5]
 C
Maintenant c'est mon tour,
    Dm7
De vous parler d'amour,
     C
J'espère ben réussir,
      Dm7           G
vous l'faire ressentir,
 
 [Verse 6]
    C
Partout ou vous m'verrez,
    Dm7
Gardez ben en souvenir,
     C
Que peu importe c'que j'ai,
    Dm7               G           C
ca s'ra pas moi, qui va, changer
 
 [Chorus]
                            F   G
On aurait certainement pas dû, aller
 C                             F          G
  Chanter din bars, ou on est resté accroché
 C                             F     G
  Crier ben fort pour pas s'décou-rager
 C                                 Fm
  Sortir ben tard juste pour voir le monde vibrer
 G       C                           F   G
de,vant moé
        (on aurait certainement pas du aller)
 C                             F          G
  Chanter din bars, ou on est resté accroché
 C                            F    G
  Crier ben fort pour pas s'décou-rager
                                                           C    F   G
  Sortir ben tard juste pour voir le monde vibrer de,vant moé,
  C                                      F
(pour voir le monde) Juste pour voir le monde

 [Riff 2]
e|--10-8--7-5--------------|
B|--12-10-8-6--------------|
G|-------------------------|
D|-------------------------|
A|-------------------------|
E|-------------------------|
  
[Outro]
 C


Комментарии

31 декабря 2018 г., 19:07
tuto: https://youtu.be/29GAlOspunU