Alter ego

Исполнитель: Jean-Louis Aubert (Français)
Пользователь: stephanie.marechal.41@gmail.com
Длительность: 130 секунд
Начальная пауза: 12 секунд
Названия аккордов: По-умолчанию
Матерная:
Комментарии к подбору: Нет

URL

Загружено:
26 сентября 2015 г., 12:47

Текст

                                    
          C*                     B*                     C*

                                                          
E||-------3--2------3----|-------2--------------|-------3--2------3----|
B||-------3--3------3----|----------3-----------|-------3--3------3----|
G||----------------------|-----------------0----|----------------------|
D||----------------------|----------------------|----------------------|
A||--3-------------------|--2-------------------|--3-------------------|
E||----------------------|----------------------|----------------------|
         il manque un   temps          à  ma    vie    il manque un 


      B*                      C*                     B*
                                                                     
-------2---------3----|-------3--2------3----|-------2--------------|
----------3-----------|-------3--3------3----|----------3------3----|
----------------------|----------------------|----------------------|
----------------------|----------------------|----------------------|
--2-------------------|--3-------------------|--2-------------------|
----------------------|----------------------|----------------------|
temps,     j'ai com---pris    il me   manque toi,


   D*                                                                         
E||-------2-----------3-----|-------2----------------|
B||-----3---3-------3---3---|-----3--3---------------|
G||---2-------2---2-------2-|---2------2-------0-2-4-|
D||-0-----------0-----------|-0----------0-2-4-------|
A||-------------------------|------------------------|
E||-------------------------|------------------------|

 mon alter ego



tu es partie mon amie
tu m'as laissé seul ici
partout tu me suis
mon alter ego
      Em C         D
ou tu es , j'irai te chercher
   Em C           D
ou tu vis je saurai te trouver
           Em  C                D
ou tu te cache , laisse moi deviner
          Am7         D
que rien ne change, t'es toujours là mon ange 


il manque ton rire à l'ennui
il manque ta flamme à ma vie
c'est pas du jeux,
mon alter ego


ou tu es , j'irai te chercher

ou tu vis je saurai te trouver
  
ou tu te cache , laisse moi deviner

t'es surement baie des anges, surement là-bas mon ange
surement là-bas, surement là-bas

ou tu es , j'irai te chercher
ou tu vis je saurai te trouver
ou tu te cache , laisse moi deviner
que rien ne change, t'es toujours là mon ange 

il manque un temps à ma vie
il manque un rire, je m'ennuie
il me manque toi ,
mon ami

Комментарии