Alexander Grahame Bell

Исполнитель: The Sweet (English)
Пользователь: Andrew Reed
Длительность: 130 секунд
Начальная пауза: 12 секунд
Названия аккордов: Не установлено
Матерная:
Комментарии к подбору: Нет

URL

Загружено:
4 июня 2017 г., 21:26

Текст

  Alexander Graham Bell - Sweet
-----------------------------------------------------------------------
Tabbed by:deHufter
Email:kurtkill@hotmail.com

Tuning:standard

Intro + verse:
e|-----------------------------------------------------------------|
B|-----------------------------------------------------------------|
G|--------------2--2--2--2--2--2--2--2-----------------------------|
D|--2--2--2--2--2--2--2--2--2--2--2--2--2--2--2--2-----------------|
A|--2--2--2--2--0--0--0--0--0--0--0--0--2--2--2--2-----------------|
E|--0--0--0--0--------------------------0--0--0--0-----------------|

e|-----------------------------------------------------------------|
B|-----------------------------------------------------------------|
G|--2--2--2--2-----------------------------------------------------|
D|--2--2--2--2--2--2--2--2-----------------------------------------|
A|--0--0--0--0--2--2--2--2-----------------------------------------|
E|--------------0--0--0--0-----------------------------------------|

Chorus:
e|-----------------------------------------------------------------|
B|-----------------------------------------------------------------|
G|--9--9-----------------------------------------------------------|
D|--9--9----7--7---------------------------------------------------|
A|--7--7----7--7---------------------------------------------------|
E|----------5--5---------------------------------------------------|

0:47:
e|-----------------------------------------------------------------|
B|-----------------------------------------------------------------|
G|--9--------------------------------------------------------------|
D|--9-let-ring-----------------------------------------------------|
A|--7--------------------------------------------------------------|
E|-----------------------------------------------------------------|

0:53:
e|-----------------------------------------------------------------|
B|-----------------------------------------------------------------|
G|-----------------------------------------------------------------|
D|-----------------------------------------------------------------|
A|--------------------------3-3-3-3-2-2---0-0-2-0------------------|
E|--3-2--3-2-0~--3-3-2-2-0~------------------------3-0--3-3-2-2 0~-|

Repeat the verse + chorus

From 2:14 modulate 'till end:
e|-----------------------------------------------------------------|
B|-----------------------------------------------------------------|
G|----------4--4---------------------------------------------------|
D|---4--4---4--4---------------------------------------------------|
A|---4--4---2--2---------------------------------------------------|
E|---2--2----------------------------------------------------------|

Комментарии