Blue Skies

Исполнитель: Gabriel Black (English)
Пользователь: hallonnakil
Длительность: 130 секунд
Начальная пауза: 12 секунд
Названия аккордов: Не установлено
Матерная:
Комментарии к подбору: Нет

URL

Загружено:
22 июля 2020 г., 12:33

Текст

[Verse 1]
                      G 
Yeah, my throat's on fire tonight cause I smoked so many cigarettes
 E 
   Mama say "You better quit them shits
           Am 
You want a tube through your neck? That's some stupid shit"
          Cm 
But mama they're my best friends on some loser shit
          G 
I roll around in a car that I bought cause some people told me
 E                                        Am 
I was a star, but still I got nobody to drive it with
 
I hope it gets better with time
          Cm 
But I'm guessing that it doesn't and I'm thinking that's fine
 
[Chorus]
 G 
I won't let go, I'm schemin'
 E 
One day, I swear I'll see it
 Am 
Blues skies, blue skies ahead of me
 Cm                        N.C.
Blues skies, blue skies ahead of me
 
[Verse 2]
 G 
London told me that I gotta keep it all pure
 E 
Me and my guitar, mama, that is the cure
 Am 
  And no promises but I'ma go hard for this
 Cm 
Blue sky paradise lying out in front of us
 G 
  And I don't know why I piss on all my happiness
 E 
  Wanna fix that shit,  make it, so rich
 Am 
  All the money, I know, plenty's on the way
 Cm 
  I wanna feel truly good on more than rainy days
 
[Chorus]
 G 
I won't let go, I'm schemin'
 E 
One day, I swear I'll see it
 Am 
Blues skies, blue skies ahead of me
 Cm 
Blues skies, blue skies ahead of me
 
 G 
I won't let go, I'm schemin'
 E 
One day, I swear I'll see it
 Am 
Blues skies, blue skies ahead of me
 Cm 
Blues skies, blue skies ahead of me
 
[Instrumental]
 G     E     Am     Cm 
 G     E     Am     Cm 
 
[Outro]
   G5         A5   E5         B5   A5              C5 
e|---------------|---------------|---------------|---------------|
B|---------------|---------------|---------------|---------------|
G|---------------|---------------|---------------|---------------|
D|---------------|---------------|---------------|---------------|
A|---------------|-----------1/2-|-0-------------|-3-------------|
E|-3---------4/5-|-0-------------|---------------|---------------|
 
 
================================================================================
 
Tabs for notes played in the Verses:
 
Verse 1: from "I roll around in a car..." to "...and I'm thinking that's fine"
 
e|----------------|----------------|----------------|----------------|
B|----------------|----------------|----------------|----------------|
G|----------------|----------------|----------------|----------------|
D|-5--7--5--4-----|-5--7--5--9-----|-7--9--7--11/12-|-12--9--7--5----|
A|----------------|----------------|----------------|----------------|
E|----------------|----------------|----------------|----------------| 
 
Verse 2:
 
e|----------------|----------------|----------------|----------------|
B|----------------|----------------|----------------|----------------|
G|----------------|----------------|----------------|----------------|
D|-5--7--9--10--9-|-5--7--5--4-----|-7--9--7--11/12-|-12--9--7--5----|
A|----------------|----------------|----------------|----------------|
E|----------------|----------------|----------------|----------------| 
 
e|----------------|----------------|----------------|----------------|
B|----------------|----------------|----------------|----------------|
G|----------------|----------------|----------------|----------------|
D|-5--7--5--4-----|-5--7--5--9-----|-7--9--7--11/12-|-12--9--7--5----|
A|----------------|----------------|----------------|----------------|
E|----------------|----------------|----------------|----------------| 
 
Instrumental: same as Verse 2

Комментарии