Piel Canela

Исполнитель: Tito Rodriguez (Español)
Пользователь: tadeu batista
Длительность: 130 секунд
Начальная пауза: 12 секунд
Названия аккордов: Не установлено
Матерная:
Комментарии к подбору: Нет

URL

Загружено:
26 октября 2020 г., 14:25

Текст

Tom: Em 
Introducción: G  D7  G  D7 
              G  C7  F  Bb7 
              D#  G#7  G 

        Am7       D7       G          G/D 
Que se quede el infinito sin estrellas
       Am7         D7         G        G/C 
O que pierda el ancho mar su inmensidad
       B7                    Em 
Pero el negro de tus ojos que no muera
       Am7                 D7 
Ni el canela de tu piel se quede igual

      Am7         D7      G       G/D 
Si perdiera el arcoiris su belleza
      Am7        D7      G        G/C 
Y las flores su perfume y su color
   B7                 Em 
No seria tan inmensa mi tristeza
     Am7                     D7 
Como aquella de quedarme sin tu amor

            Am  Am(maj7)  Am7 
Me importas tú,  y tú,  y tú
   D7       G     Bm    Em  E7 
Y solamente tú, y tú, y tú
            Am  Am(maj7)  Am7 
Me importas tú,  y tú,  y tú
   D7           G    G  F#  F 
Y nadie mas que tu

 E                       E7 
Ojos negros, piel canela
         Am           Cm 
Que me tiene a desesperar

            Am  Am(maj7)  Am7 
Me importas tú,  y tú,  y tú
   D7       G     Bm    Em  E7 
Y solamente tú, y tú, y tú
            Am  Am(maj7)  Am7 
Me importas tú,  y tú,  y tú
             Gmaj7  D7  Gmaj7  D7 
Y nadie mas que tu

Interludio: Gmaj7  D7  Gmaj7  D7 
            Gmaj7  C7  Gmaj7  C7 

            Gmaj7  D7  Gmaj7  D7 - (cuatro veces)

            Am  Am(maj7)  Am7 
Me importas tú,  y tú,  y tú
   D7       G     Bm    Em  E7 
Y solamente tú, y tú, y tú
            Am  Am(maj7)  Am7 
Me importas tú,  y tú,  y tú
             G     D#  G  Gmaj7 
Y nadie mas que tu

Acordes:


Notas importantes:
 Recuerden que este tipo de bolero lleva un ritmo muy particular,
que se toca usando el pulgar para los bajos, y los dedos índice,
medio y anular para los agudos. Cada acorde tiene dos bajos, el
tónico y el alternado. Nuestro pulgar va a ser el que toca los bajos,
mientras los demás dedos tocan los agudos de las cuerdas 1ra, 2da y 3ra.
 Ejemplo: el coro


   Am    Am(maj7) Am7   D7      G     Bm      Em    E7 
E|----0-0---0---0----0-0---2---2---3-3---2---2---0-0---0---0---|
B|----1-1---1---1----1-1---1---1---3-3---3---3---0-0---0---0---|
G|----2-2---1---1----0-0---2---2---0-0---4---4---0-0---1---1---|
D|--------2---2----------0---0---------------------------0-----|
A|--0--------------0-------------------2---2---------2---------|
E|-------------------------------3-------------0---------------|

   Am    Am(maj7) Am7   D7      G                 G  F#  F 
E|----0-0---0---0----0-0---2---2---3-3---3---3-----3--2--1-----|
B|----1-1---1---1----1-1---1---1---3-3---3---3-----3--2--1-----|
G|----2-2---1---1----0-0---2---2---0-0---0---0-----4--3--2-----|
D|--------2---2----------0---0-------------0-------------------|
A|--0--------------0-------------------2-----------------------|
E|-------------------------------3-------------3---3--2--1-----|
                                              *

   E             E7            Am              Cm 
E|----0-0---0---0---0-0---0---0---0-0---0---0---3--------|
B|----0-0---0---0---0-0---0---0---1-1---1---1---4--------| Note que en Cm 
G|----1-1---1---1---1-1---1---1---2-2---2---2---5--------| hace un staccato*
D|--------------------------0----------------------------| osea que calla las
A|--------2---2---------2-------0-----0---0-----3--------| notas,también en
E|--0-------------0--------------------------------------| el bajo de G.
                                               *
 Buenos, pues así va el ritmo de toda la canción, escuchenla bien. ;)

Комментарии