Un autre Monde

Исполнитель: Jean Louis Aubert (Français)
Пользователь: sebastien letendard
Длительность: 130 секунд
Начальная пауза: 12 секунд
Названия аккордов: Не установлено
Матерная:
Комментарии к подбору: Нет

URL

Загружено:
5 декабря 2020 г., 23:11

Текст

Un autre monde de téléphone 


 D*   : xx0230
 Bm   : 224432
 Fm   : 244200
 A    : x02220   (barrer les 3 cordes avec l'index)
 A1   : x022"3"0 (barrer les 2 premières cordes avec l'index et le "3" avec le majeur)
 A2   : x022"5"0 (barrer les 2 premières cordes avec l'index et le "5" avec le petit doigt)
 G    : 32000"3" (penser à jouer le "3" avec le petit doigt) 
 G*   : 32000"2" ( jouer le "2" avec l'index)
 A3   : x"2"222x (barrer les 3 cordes du A avec l'index et  le "2" avec le majeur)
 A4   : x"4"222x (barrer les 3 cordes du A avec l'index et  le "4" avec le petit doigt)
 D    : xx0232

intro

E----------------0-------------------------0----------------------0----------
B---------3---------3-----3--------0---------0-----0--------0--------0-----0-
G------2-----2---------2--------2-----2---------2--------2-----2--------2----
D---0------------------------4-------------------------4---------------------
A----------------------------------------------------------------------------
E----------------------------------------------------------------------------


E--------------0-----------
B--------0--------0-----0--
G-----2-----2--------2-----
D--4-----------------------
A--------------------------
E--------------------------


E----------------0-------------------------0--------------0----------------
B---------3---------3-----3--------0---------0-----0------0----0-----------
G------2-----2---------2--------2-----2---------2---------2----2-----2-----
D---0------------------------4----------------------------4----4-----4-----
A--------------------------------------------------------------------4-----
E--------------------------------------------------------------------2-----

couplet 1
 D*          Bm                   Fm 
     Je rêvais d'un autre monde 
D*          Bm           Fm
     Où la terre serait ronde 
D*        Bm           Fm
    Où la lune serait blonde 
D*        Bm          A            A1      A2 
     Et la vie serait féconde 


refrain 1
G  G*  G        A                            G       G*     G
                 Je marchais les yeux fermés 
A                            G        G*       G
Je ne voyais plus en biais 
A                 G
Je rêvais réalité 
A
    Ma réalité  
D*    Bm    Fm

couplet 2
D*          Bm                   Fm
       Je rêvais d'une autre terre 
D*            Bm             Fm
     Qui resterait un mystère 
D*        Bm                      Fm
     Une terre moins terre à terre  
D*                 Bm                     A          A1    A2
      Oui je voulais tout foutre en l'air 

refrain 2
G  G*  G             A                       G       G*     G
                  Je dormais à poings fermés 
A                               G       G*     G
Je ne voyais plus mes pieds 
A                  G       
Je rêvais réalité 
             A                 D*
Ma réalité        m'a alité 

accords pendant le SOLO
D*      Bm       Fm     (gratter plus fort les cordes sur la remontée)

couplet 3
D*       Bm               Fm      (gratter plus fort les cordes sur la remontée)
     je rêvais de notre monde 
D*         Bm           Fm      (gratter plus fort les cordes sur la remontée)
      Et la terre est si blonde 
D*        Bm          Fm      (gratter plus fort les cordes sur la remontée)
     Et la lune est si ronde 
      D*          Bm                           A          A1    A2  (gratter plus fort les cordes sur la remontée)
que Ce soir dansent les ombres du monde 

refrain 3
G         A                     G
           A la rêver immobile
A                                G
Elle m'a trouvé bien futile 
A                                     G
quand bouger l'a faite tourné 
             A                 D*      Bm
Ma réalité, m'a pardonné 
                Fm                       D*        Bm       Fm
m'a pardonné        m'a pardonné 
                                D*
danse les ombres du monde 
 Bm                              Fm
    danse les ombres du monde 
                                D*
danse les ombres du monde
Bm                                Fm
     danse les ombres du monde 
D*                  Bm                   Fm
    danse danse      danse danse      danse danse danse danse 
D*                  Bm                   Fm   (ralentir sur cette dernière phrase  et faire sonner le Fm)
    danse danse      danse danse      danse danse danse danse 
A   A3  A4  A3  D (faire sonner la dernière note)

Комментарии