Cendrillon

Исполнитель: Jean Louis Aubert (Français)
Пользователь: sebastien letendard
Длительность: 130 секунд
Начальная пауза: 12 секунд
Названия аккордов: Не установлено
Матерная:
Комментарии к подбору: Нет

URL

Загружено:
5 декабря 2020 г., 23:20

Текст

Capo II
 
  INTRO 2x :

|---3---3-----3---3--|---2---2-----2---2--|---0---0-----0---0--|
|-----3---------3----|-----3---------3----|-----3---------3----|
|-0---------0--------|-0---------0--------|-0---------0--------|
|--------------------|--------------------|--------------------|
|--------------------|--------------------|--------------------|
|--------------------|--------------------|--------------------|

|---0---0-----0---0--|
|-----1---------1----|
|-0---------0--------| 
|--------------------|
|--------------------|
|--------------------|

 COUPLET 1 :
 G                 D    
Cendrillon pour ses vingt ans
     Em              C 
Est la plus jolie des enfants
G                 D
Son bel amant, le prince charmant
Em               C
La prend sur son cheval blanc
 Bm              G
Elle oublie le temps
     D              Em
Dans son palais d'argent
Am
Pour ne pas voir qu'un nouveau jour se lève
C
Elle ferme les yeux et dans ses rêves


G         D    D  Em    Bm           C
Elle part,              jolie petite histoire (2x)

COUPLET 2 :

G               D
Cendrillon pour ses trente ans
    Em             C
Est la plus triste des mamans
G             D
Son bel amant a foutu l'camp
 Em              C
Avec la belle au bois dormant
G              D
Elle a vu cent chevaux blancs
     Em             C
Loin d'elle emmener ses enfants
Bm              G
Elle commence à boire
   D               Em
A traîner dans les bars
Am
Emmitouflée dans son cafard
C
Maintenant elle fait le trottoir

REFRAIN : (idem)

G         D    D  Em   Bm           C
Elle part,             jolie petite histoire (2x)

COUPLET 3 :
              
G                D
Dix ans de cette vie ont suffit
Em           C
A la changer en junkie
   G               D
Et dans un sommeil infini
Em                 C
Cendrillon voit finir sa vie
Bm           G
Les lumières dansent
D             Em
Dans son ambulance
Am
Mais elle tue sa dernière chance
C
Tout ça n'a plus d'importance

REFRAIN :

G         D      D  Em
Elle part
Bm   C         G
Fin de l'histoire     (2x)

COUPLET 4: 

Notre père qui êtes si vieux
As-tu vraiment fait de ton mieux
Car sur la terre et dans les cieux
 Em                Cm          G
Tes anges n'aiment pas devenir vieux

Комментарии