Stranger

Исполнитель: Gorky Park (English)
Пользователь: www.gagarin.48
Длительность: 130 секунд
Начальная пауза: 12 секунд
Названия аккордов: Не установлено
Матерная:
Комментарии к подбору: Нет

URL

Загружено:
6 апреля 2021 г., 1:35

Текст


Riff 1: x4
|---------------------------------------------------|   
|-------4-----4-----4-----4-------3-----3-------1-3-|   
|-----5-----5-----5-----5-------3-----3-----3-4-----|
|---5-----5-----5-----5-------3-----3-----3---------|   
|-3-------------------------1-----------------------|   
|---------------------------------------------------|   

 Cm      Fm           G#              G        
Stranger next to me, have I seen your face    
 Cm      Fm               G#              G    
Stranger tell me please, have I seen this place     
 Cm      Fm           G#              G        
Oh stranger you're so close I can hold your hand     
 Cm      Fm               G#              G    
I'm a stranger oh just like you don't you understand   
 G 
Oh stranger     
                          
 Cm      Fm           G#              G        
Silence stopped the time I can hear your heart     
 Cm      Fm               G#              G    
Glimmer of your eyes reach me from the dark     
 Cm      Fm           G#              G        
I'm dreaming or may be not clothing's falling down     
 Cm      Fm               G#              G    
All matters we're giving up 'cause nothing matters now     
 G 
Oh stranger     

Chorus:   
 Cm      Fm           G#              G        
Between the walls and face to face. Oh stranger   
 Cm      Fm               G#          G    
We won't have another chance. Oh stranger     
 Cm      Fm       G#     G    
There won't be another night     
 Cm     Fm      G   
(We couldn't lie)   

Riff 2:   
  Cm   Fm    G#        G   
|-5-----1-----------------|   
|-4-----1---------5-----4-|   
|-5-----1---------6-----5-|   
|-5-----3-------6---------|   
|-3-----3----4----------3-|   
|-------1-----------------|   

 Cm      Fm       G#    G    
Oh stranger with me tonight     
 Cm      Fm       G#    G    
You're stranger with me all night     
 Cm      Fm       G#   G    
My stranger my stranger   
 G 
We couldn't lie 

Комментарии