See you again

Исполнитель: Charlie Puth (English)
Пользователь: Bai nyo sotomayor
Длительность: 130 секунд
Начальная пауза: 12 секунд
Названия аккордов: Не установлено
Матерная:
Комментарии к подбору: Нет

URL

Загружено:
25 ноября 2022 г., 0:47

Текст


Capotraste na 3ª casa
[Intro] Em7  G  C9  G 

[Refrão]

             Em7  G 
It's been a long day 

    C             G 
Without you, my friend
          Em7         G 
And I'll tell you all about it
        C        G 
When I see you again
       D9     Em7  G 
We've come a long way
       C         G 
From where we began
 D9        Em7         G 
Oh, I'll tell you all about it
        C        G 
When I see you again
        C        G 
When I see you again

[Primeira Parte]

 Em7  G 
    Damn, who knew
 D9           C9 
   All the planes we flew
 G                          D9 
Good things we been through
     Em7                    G 
That I'd be standing right here
               D9 
Talking to you
        C9 
About another path
    G 
I know we loved
                     D9 
To hit the road and laugh

 Em7 
    But something told me
  G                   D9 
That it wouldn't last
         C9 
Had to switch up
          G 
Look at things different
            D9 
See the bigger picture
 Em7                 G 
    Those were the days
               D9 
Hard work forever pays
 C9               G 
   Now I see you in a better place

[Pré-Refrão]

 Em7  G      D9       C9 
       How could we not

Talk about family
  G                            D9 
When family's all that we got?
    Em7 
Everything I went through
     G                             
You were standing there by my side
 D9 

     C9 
And now you gon' be with me
 G 
For the last ride

[Refrão]

             Em7  G 
It's been a long day 

    C             G 
Without you, my friend
          Em7         G 
And I'll tell you all about it
Remover anúncio
        C        G 
When I see you again
       D9     Em7  G 
We've come a long way
       C         G 
From where we began
 D9        Em7         G 
Oh, I'll tell you all about it
        C        G 
When I see you again
        C        G 
When I see you again

[Interlúdio]

      Em7  G 
Oh oh oh   oh..
      C9  G 
Oh oh oh  oh..
 Em7  G  C9  G 
Uuhh..

[Segunda Parte]

 Em7  G   D9         C9 
        First, you both go out your 
way
      G 
And the vibe is feeling strong
 D9           Em7 
And what's small turned to a 
friendship
 G 
 A friendship turned to a bond
 D9        C9 
And that bond will never be broken
  G 
The love will never get lost


 Em7  G  D9            C9 
        And when brotherhood come 
first
       G 
Then the line will never be crossed
 D9    Em7 
Established it on our own
       G 
When that line had to be drawn

 D9        C9 
And that line is what we reached
    G 
So remember me when I'm gone

[Pré-Refrão]

 Em7  G      D9       C9 
       How could we not

Talk about family
  G                            D9 
When family's all that we got?
    Em7 
Everything I went through
     G                             
You were standing there by my side
 D9 

     C9 
And now you gon' be with me
 G 
For the last ride

[Terceira Parte]

            Am7   G          D11 
So let the light guide your way, 
yeah
 Am7             G             D11 
    Hold every memory as you go
           Am7      G 
And every road you take
        G/F#  Em7  G/D  C9    
Will always  lead you  home, 
C4+(9) C9 
home

[Refrão]

             Em7  G 
It's been a long day 

    C             G 
Without you, my friend
          Em7         G 
And I'll tell you all about it
        C        G 
When I see you again
       D9     Em7  G 
We've come a long way
       C         G 
From where we began
 D9        Em7         G 
Oh, I'll tell you all about it
        C        G 
When I see you again
        C        G 
When I see you again

[Interlúdio Final]

      Em7  G 
Oh oh oh   oh..
      C9  G 
Oh oh oh  oh..
 Em7  G  C9  G 
Uuhh..

      Em7  G 
Oh oh oh   oh..
      C9  G 
Oh oh oh  oh..
 Em7  G  C9  G 
Uuhh..

[Parte 1
]

   Em7    G 
E|---5-3----3-5-7-5-3-5-----------
B|-3------0-----------------------
G|-0------0-----------------------
D|--------------------------------
A|--------------------------------
E|-0------3-----------------------

[Parte 2
]

   C9     G 
E|---5-3----3-5-7-5-3-5-----------
B|-3------3-----------------------
G|-0------0-----------------------
D|--------------0-----------------
A|-3------------------------------
E|--------3-----------------------

[Parte 3
]

   Em7 
E|---5-3----3-5-7-5-3-5-----------
B|-3------0-----------------------
G|-0------0-----------------------
D|--------------------------------
A|--------------------------------
E|-0------3-----------------------

[Parte 4
]

   C9     G 
E|---5-3--------------------------
B|-3------3-----------------------
G|-0------0-----------------------
D|--------------------------------
A|-3------------------------------
E|--------3-----------------------

[Ritmo Primeira Parte]

   Em7   G     D9  C9    G     
E|-----x-----x---------x-----x----
B|-0-0-x-0---x-3---3-3-x-3---x-3--
G|-0-0-x-0---x-2---0-0-x-0---x-2--
D|-0-0-x-0---x-0---0-0-x-0---x-0--
A|-----x-----x-----3---x-----x----
E|-0---x-3-3-x---------x-3-3-x----

[Teceira Parte]

[Parte 1
]

   Am7      G        D11 
E|-------------------------------
B|-1---1----0---0----3---3---3---
G|-0---0----0---0----0---0---0---
D|---2---2----0---0----4---4---4-
A|-0-----------------5-----------
E|----------3--------------------

E|-----------| 
B|3----------| 
G|0----------| 
D|--4--------| 
A|-----------| 
E|-----------| 

[Parte 2
]

   Am7      G 
E|--------------------------------
B|-1---1----0---0-----------------
G|-0---0----0---0-----------------
D|---2---2----0---0---------------
A|-0------------------------------
E|----------3---------------------

[Parte 3
]

   G    G/F#  Em7   G/D 
E|--------------------------------
B|-0-----0-----0-----0------------
G|-0-----0-----0-----0------------
D|-0-----0-----0-----0------------
A|--------------------------------
E|-3-----2-----0------------------

[Parte 4
]

   C9       C4+(9)   C9 
E|-------------------------------
B|-3---3----3---3----3---3---3---
G|-0---0----0---0----0---0---0---
D|---2---2----4---4----2---2---2-
A|-3--------3--------5-----------
E|-------------------------------

E|-----------| 
B|3----------| 
G|0----------| 
D|--2--------| 
A|-----------| 
E|-----------| 



Комментарии